“YUI – again” Single

YUI - again

Parça listesi:
1. again
2. Sea
3. SUMMER SONG ~YUI Acoustic Version~
4. again ~Instrumental~

Teknik bilgi:
• Format: MP3
• Toplam süre: 00:15:39
• Toplam boyut: 35,83 MB
• Kalite: 44 kHz, 320 kbps, Stereo
• Çıkış tarihi: 3 Haziran 2009

Albümü indirmek için aşağıdaki bağlantılardan birini kullanabilirsiniz:
DDL | Torrent

“YUI – again” Şarkı Sözleri

yume no tsuzuki oikaketeita hazu nanoni
magarikunetta hosoi michi hito ni tsumazuku

ano koro mitai ni tte modoritai wake ja nai no
nakushite kita sora o sagashiteru
wakatte kuremasu you ni gisei ni natta you na
kanashii kao wa yamete yo

tsumi no saigo wa namida ja nai yo zutto kurushiku seottekun da
deguchi mie nai kanjou meiro ni dare o matteru no?
shiroi NOTE ni tsuzutta you ni motto sunao ni hakidashitai yo
nani kara nogaretain da …genjitsu tte yatsu?

kanaeru tame ni ikiterun datte
wasure chai sou na yoru no mannaka
bunan ni nante yatterare nai kara
…kaeru basho mo nai no

kono omoi o keshi te shimau ni wa
mada jinsei nagai desho? (I’m on the way)
natsukashiku naru
konna itami mo kangei jan

ayamara naku cha ike nai yo ne ah gomen ne
umaku ie naku te shinpai kaketa mama datta ne

ano hi kakae ta zenbu ashita kakaeru zenbu
junban tsuketari wa shi nai kara
wakatte kuremasu you ni sotto me o tojitanda
mitaku nai mono made mien da mon

ira nai uwasa ni chotto hajimete kiku hatsugen docchi?
mu kai attara tomodachi datte?? uso wa yamete ne
akai/fukai HEART ga iradatsu you ni karadan naka moe te irun da
honto wa kitai shi ten no …genjitsu tte yatsu?

kanaeru tame ni ikiterun datte
sakebi taku naru yo kikoete imasu ka?
bunan ni nante yatterare nai kara
…kaeru basho mo nai no

yasashisa ni wa itsumo kanshashiteru
dakara tsuyoku naritai (I’m on the way)
susumu tame ni
teki mo mikata mo kangei jan

dou yatte tsugi no DOOR akerun dakke? kangaeteru?
mou hikikaese nai monogatari hajimatterun da
me o samase me o samase

kono omoi o keshite shimau ni wa
mada jinsei nagai desho?
yarinokoshiteru koto yarinaoshite mitai kara
mouichido yukou

kanaeru tame ni ikiterun datte
sakebitaku naru yo kikoete imasu ka?
bunan ni nante yatterare nai kara
…kaeru basho mo nai no

yasashisa ni wa itsumo kanshashiteru
dakara tsuyoku naritai (I’m on the way)
natsukashiku naru
konna itami mo kangei jan

“YUI – again” Gitar Tabları

Daha rahat okumak için tabları Not Defteri’ne kopyalayıp yapıştırmanızı, veya eğer Firefox kullanıyorsanız Ctrl tuşuna basılı tutup fare tekerleğini ileri iterek sayfayı yakınlaştırmanızı öneririz. Sayfayı tekrar eski haline getirmek için Ctrl+0 tuş kombinasyonunu kullanabilirsiniz.

Giriş:
(00:00-00:03)

|-0-----0------0------0---------|        |-------------------------------|
|---3------3------3------3------|        |-5-----5------5------5---------|
|-----2------2------2------2----|  veya  |---7------7------7------7------|
|-------------------------------|        |-----7------7------7------7----|
|-------------------------------|        |-------------------------------|
|-------------------------------|        |-------------------------------|

Giriş/kapanış solosu:
(00:03-00:19, 03:48-04:04)

|------------------------------------------------------------------------|
|-----8-7---------8-7-8/10-8-7---------8-7---------8-7-------------------|
|---7-----7-----7--------------8-----7-----7-----7-----8b9b8b9b8b9b8b9b8-|
|-9-----------9--------------------9-----------9-------------------------|
|------------------------------------------------------------------------|
|------------------------------------------------------------------------|

Solo:
(02:57-03:10)

|------------------------------------------------------------------------|
|------------------------------------------------------------------------|
|-8-8-8-7-7-7-----8-8-8-7-7-7----------7--7b8b7--------------------------|
|-------------8-8-------------8-8--10------------------------------------|
|------------------------------------------------------------------------|
|------------------------------------------------------------------------|

|------------------------------------------------------------------------|
|----------------8-8-10-10-10-11-11-11-13-13--15--13--15b16b15-----------|
|-8-8-8-10-10-10---------------------------------------------------------|
|------------------------------------------------------------------------|
|------------------------------------------------------------------------|
|------------------------------------------------------------------------|

veya

|------------------------------------------------------------------------|
|------------------------------------------------------------------------|
|------------------------------------------------------------------------|
|-13-13-13-12-12-12-------13-13-13-12-12-12--------10--12--12b13b12------|
|-------------------13-13-------------------13-13------------------------|
|------------------------------------------------------------------------|

|------------------------------------------------------------------------|
|----------------------------------11-11-11-13-13--15--13--15b16b15------|
|----------10-10-10-12-12-14-14-14---------------------------------------|
|-13-13-13---------------------------------------------------------------|
|------------------------------------------------------------------------|
|------------------------------------------------------------------------|

Artık hangisi size daha rahat gelirse. (:

Reklamlar

3 Responses to “Açılış #1”


  1. 1 monthius 13 Haz 2009, 17:10

    Eren gitar çalmayı nerden öğreniyorduk?

  2. 2 erengy 13 Haz 2009, 21:38

    444 0 YUI’yi arayacaksın, sana oradan yardımcı olurlar. (:


  1. 1 English again? « Ouroboros Fansub 02 Ağu 2009, 02:43 yazısı için Geri İzleme tarafından yapılan yorum

Bir Cevap Yazın

Aşağıya bilgilerinizi girin veya oturum açmak için bir simgeye tıklayın:

WordPress.com Logosu

WordPress.com hesabınızı kullanarak yorum yapıyorsunuz. Çıkış  Yap / Değiştir )

Twitter resmi

Twitter hesabınızı kullanarak yorum yapıyorsunuz. Çıkış  Yap / Değiştir )

Facebook fotoğrafı

Facebook hesabınızı kullanarak yorum yapıyorsunuz. Çıkış  Yap / Değiştir )

Google+ fotoğrafı

Google+ hesabınızı kullanarak yorum yapıyorsunuz. Çıkış  Yap / Değiştir )

Connecting to %s





%d blogcu bunu beğendi: