“SID – Uso” Single

SID – Uso

Parça listesi:
1. Uso
2. Higasa
3. Yuukan Collection (Live at Nippon Budoukan 2008.11.2.)

Teknik bilgi:
• Format: MP3
• Toplam süre: 00:12:14
• Toplam boyut: 28,02 MB
• Kalite: 44 kHz, 320 kbps, Stereo
• Çıkış tarihi: 29 Nisan 2009

Albümü indirmek için aşağıdaki bağlantılardan birini kullanabilirsiniz:
DDL | Torrent

“SID – Uso” Şarkı Sözleri

あの日見た空 茜色の空を ねえ 君は憶えていますか
ano hi mita sora akaneiro no sora o nee kimi wa oboete imasu ka
O gün gördüğümüz gökyüzü, o kızıl gökyüzü… Söyle, hâlâ hatırlıyor musun?

約束 契り 初夏の風が包む 二人 寄り添った
yakusoku chigiri shoka no kaze ga tsutsumu futari yorisotta
Bir söz, bir yemin, ve etrafımızı saran bahar rüzgârı… O gün, ikimiz birlikteydik.

無理な笑顔の裏 伸びた影をかくまう
muri na egao no ura nobita kage o kakumau
O sahte tebessümün ardında büyüyen bir karanlık yatıyor.

だから 気づかぬふり 再生を選ぶ
dakara kizukanu furi saisei o erabu
Bu yüzden görmezden geldim ve yeniden başlamayı seçtim.

テーブルの上の 震えない知らせ 待ち続けて
TABLE no ue no furuenai shirase machi tsuzukete
Masamda oturmuş malum haberi beklemeye devam ediyorum.

空白の夜も 来るはずのない朝も 全部わかってたんだ
kuuhaku no yoru mo kuru hazu no nai asa mo zenbu wakattetanda
Geceler ıssız, güneş doğmuyor. Hepsini önceden biliyordum.

あの日見た空 茜色の空を ねえ 君は忘れだのでしょう
ano hi mita sora akaneiro no sora o nee kimi wa wasureta no deshou
O gün gördüğümüz gökyüzü, o kızıl gökyüzü… Söyle, çoktan unuttun mu?

約束 千切り 初夏の風に消えた 二人 戻れない
yakusoku chigiri shoka no kaze ni kieta futari modorenai
Verdiğimiz sözler paramparça, bahar rüzgârı artık esmiyor. Eski günlere dönemeyiz.

音も 色も 温度も 半分になった この部屋
oto mo iro mo ondou mo hanbun ni natta kono heya
Sesler, renkler ve sıcaklığın yarım kaldığı bir oda bu.

今日も散らかしては 揺れ 疲れ 眠る
kyou mo chirakashite wa yure tsukare nemuru
Bugün de darmadağın; bir ürperti ve bitkinlikle dalıyorum uykuya.

「上手に騙してね 嘘は嫌いで好き」 君の言葉
“jouzu ni damashite ne uso wa kirai de suki” kimi no kotoba
“Beni aldattın, seni yalanlardan nefret ettiğin için sevmiştim.” demiştin.

今頃になって 気持ちは痛いほど だから 僕ら さよなら
imagoro ni natte kimochi wa itai hodo dakara bokura sayonara
Duyguları incinen bizler için artık veda etme vakti.

いつかまたねと 手を振り合ったけど もう逢うことはないのでしょう
itsu ka mata ne to te o furi atta kedo mou au koto wa nai no deshou
Son kez birbirimize el sallarken “sonra görüşürüz” dedik; ama bir daha görüşmeyeceğiz, değil mi?

最後の嘘は 優しい嘘でした 忘れない
saigou no uso wa yasashii uso deshita wasurenai
Yalanların sonuncusu beyaz bir yalandı, asla unutmayacağım.

あの日見た空 茜色の空を ねえ いつか思い出すでしょう
ano hi mita sora akaneiro no sora o nee itsuka omoidasu deshou
O gün gördüğümüz gökyüzü, o kızıl gökyüzü… Bir gün sen de hatırlayacaksın, değil mi?

果たせなかった 約束を抱いて 二人 歩き出す
hatasenakatta yakusoku o idaite futari arukidasu
Tutamadığımız sözlere tutunacak, ve yeniden birlikte yürüyeceğiz.

“SID – Uso” Gitar Tabları

Daha rahat okumak için tabları Not Defteri’ne kopyalayıp yapıştırmanızı, veya eğer Firefox kullanıyorsanız Ctrl tuşuna basılı tutup fare tekerleğini ileri iterek sayfayı yakınlaştırmanızı öneririz. Sayfayı tekrar eski haline getirmek için Ctrl+0 tuş kombinasyonunu kullanabilirsiniz.

Solo:
(01:50-02:09)

|-10-9-10-9-----------------------------------------------------------------------------------------7-9
|-----------10--------------10------------7/8---7-8/12-14-15--15-15-15-14-14-14-12-11-------------7----
|--------------11---7/9-11-----11---5/7-9-----9---------------------------------------12-11---5/7------
|------------------------------------------------------------------------------------------------------
|------------------------------------------------------------------------------------------------------
|------------------------------------------------------------------------------------------------------
-10/12-10-9/10\9--------------------------------10----12----12/14-15-14-14-14-12-10-9-10-9/10\9-------|
-----------------10---------------10---------10----10----10-------------------------------------10/12-|
--------------------11-------9-11----------9----------------------------------------------------------|
-----------------------11/12---------11/12------------------------------------------------------------|
------------------------------------------------------------------------------------------------------|
------------------------------------------------------------------------------------------------------|

Uso’nun tabları şu anda büyük olasılıkla internette yazılı halde başka hiçbir yerde yok, en azından biz bulamadık. Kendimiz çıkarttığımız için tamamen doğru olmaması gayet mümkün. Hatalı veya eksik bir nota bulursanız lütfen belirtin, hemen düzeltelim.

Reklamlar

0 Responses to “Kapanış #1”



  1. Yorum Yapın

Bir Cevap Yazın

Aşağıya bilgilerinizi girin veya oturum açmak için bir simgeye tıklayın:

WordPress.com Logosu

WordPress.com hesabınızı kullanarak yorum yapıyorsunuz. Çıkış  Yap / Değiştir )

Twitter resmi

Twitter hesabınızı kullanarak yorum yapıyorsunuz. Çıkış  Yap / Değiştir )

Facebook fotoğrafı

Facebook hesabınızı kullanarak yorum yapıyorsunuz. Çıkış  Yap / Değiştir )

Google+ fotoğrafı

Google+ hesabınızı kullanarak yorum yapıyorsunuz. Çıkış  Yap / Değiştir )

Connecting to %s





%d blogcu bunu beğendi: